Войти / Зарегистрироваться

Не Отпускай

Q

Добавить в закладки
589
S

Мне нравится

Поделитесь с друзьями:

  • Текст, перевод и аккорды “Не Отпускай”

  • (verse:)
    F#m Bm
    Hад моей пропастью, у самой лопасти
    A A/G F#7
    Кружатся глобусы, старые фокусы
    Bm Em
    Я же расплакалась, я не железная,
    D D/C B7
    Мама Америка в двадцать два берега

    (chorus:)
    Em7 A7 Em7 A7
    Ты не отпускай меня, не отпускай,

    e:---------------------------:--------------------------
    B:--4h5---5-53---3--2--0--2-:-4h5---5-53---3--2-------
    G:---------------------------:---------------------4--2-

    Em7 A7 D B7
    Hе отпускай меня - вдруг кто увидит

    e:----------------------------
    B:--4h5---5-53---3--2--0--2--
    G:----------------------------

    Em7 A7 Em7 A7
    Ты не отпускай меня, не отпускай,
    Em7 A7 D C#7
    Hе отпускай меня - вдруг кто увидит

    (verse:)
    Вечная юная, сразу за дюнами
    Ждет тебя парусник мною придуманный.
    Двадцать два месяца глобусы бесятся,
    Люди прощаются, но не возвращаются

    (chorus)

    Verse:
    Голуби прячутся, в небо не хочется,
    В списке не значится и значит не молится
    Ты разбегаешься над моей пропастью,
    После раскаешься и крыльями лопасти

    (chorus)

    (solo:)
    G:--------------4--6--7-----6--4--
    D:--/4---4h6/7--------------------

    G:--6-7-9--7---7-7p6---6-----7-6---------1p0-0------
    D:-------------------------------9-8-----------2-4--

    G:----9-6---7-----6-7-6---65h6---7-9----11---12-11-9--
    D:--8-----------9---------------------------------------

    G:--11h12-12-14/16-14-12-11h12p11--9--11--
    G:--12-11h12p11-9-8-----8-9-11-12-11-9-8--

    (chorus)
7

;

Такой email уже используется или указан не настоящий email

,

Восстановление пароля
Правила восстановления пароля будут отправлены на Вашу почту.
Уже не надо, я вспомнил(а) пароль

+

Вход в аккаунт

Восстановить


пароль

Вход через соцсети:

12t4

.

Регистрация