Войти / Зарегистрироваться

Бездельник #2

  • Исполнитель:

    Кино
  • Просмотров:

    143,980

Q

Добавить в закладки
589
S

Мне нравится

Поделитесь с друзьями:

  • Текст, перевод и аккорды “Бездельник #2”


  • 1|-2-2-2--2--2-2--2-2--2-2-2--2-2--0----0--0--0-0---------------------
    2|-3-3-3--3--5-3--5-3--5-3-3--5-3--2----2--3--3-2---------------------
    3|-2-2-2--2--2-2--2-2--2-2-2--2-2--2----2--2--2-2---------------------
    4|-4-4-4--4--4-4--4-4--4-4-4--4-4--2----2--2--2-2---------------------
    5|-2-2-2--2--2-2--2-2--2-2-2--2-2--0----0--0--0-0---------------------
    6|--------------------------------------------------------------------

    1|-2-2-2--2--2-2--2-2--2-2-2--2-2---/5--3--0^3------------------------
    2|-3-3-3--3--5-3--5-3--5-3-3--5-3---/5--3--0^3--3/5-3-----------------
    3|-2-2-2--2--2-2--2-2--2-2-2--2-2---------------2/4-2-----------------
    4|-4-4-4--4--4-4--4-4--4-4-4--4-4-------------------------------------
    5|-2-2-2--2--2-2--2-2--2-2-2--2-2-------------------------------------
    6|--------------------------------------------------------------------

    Hm A
    Гуляю.
    D A
    Я один гуляю.
    Hm A Cm# Fm#
    Что дальше делать, я не знаю.
    Hm A
    Нет дома.
    D A
    Никого нет дома.
    Hm A Cm# Fm# Cm# Fm#
    Я лишний, словно куча лома, у-у.

    Hm A
    Я бездельник, о-о, мама, мама,
    Cm# Fm#
    Я бездельник, у-у...
    Hm A
    Я бездельник, о-о, мама, мама. /Hm A/

    В толпе я
    Как иголка в сене.
    Я снова человек без цели.
    Болтаюсь,
    Целый день гуляю.
    Не знаю, я ничего не знаю, у-у.
7

;

Такой email уже используется или указан не настоящий email

,

Восстановление пароля
Правила восстановления пароля будут отправлены на Вашу почту.
Уже не надо, я вспомнил(а) пароль

+

Вход в аккаунт

Восстановить


пароль

Вход через соцсети:

12

.

Регистрация