a b c d e f g h i j k l m n o p q r s t u v w x y z
Войти / Зарегистрироваться

Sweet Dreams

Q

Добавить в закладки
589
S

Мне нравится

Поделитесь с друзьями:

  • Текст, перевод и аккорды “Sweet Dreams”

  • This is sweet dreams as performed live by Marilyn Manson.

    Sweet Dreams
    G|----------------|------------------|
    D|------5---6---5-|------------------|
    A|--3-3---3---3---|-----6/8-----5/6--|
    E|----------------|--4-4-----3-3-----|

    Repeat this quite a few times, then the distorted chorus comes in. I`m not
    sure on this part, but it`s something like this, or so it sounds to me,
    kinda hard to tab from the audio on a bootlegged video. Know what i mean?


    G|-------------------------|
    D|--6-6-6---5-5-5--5-5-5---|
    A|--6-6-6---5-5-5--3-3-3---| something like that...
    E|--4-4-4---3-3-3----------|


    This isn`t the exact number,but you get the idea. Listen to it and play
    along. I`m pretty sure it is those chords, but hey, i couldn`t hear it too
    well. When the "Dope Hat" single comes out i`ll complete it.

    and now the solo...


    ^=bends
    e|-------------------------------------------------|
    B|-------------------------------------------------|
    G|----6-8-6---8^8^8^-------------------------------|
    D|-6-8-----8-6------665-3-55--333-1-11-333-555-8-5-|
    A|-------------------------------------------------|
    E|-------------------------------------------------|

    e|---------------------------|----------------------|
    B|--------------------55-8^--|--6^----------8^------|
    G|--------------55-7^------5-|-----5--7^-5------5---|
    D|--99-11-11^-9--------------|----------------------|
    A|---------------------------|----------------------|
    E|---------------------------|----------------------|

    e|-----------------|
    B|-----------------|
    G|-----------------|
    D|------5-6-5------|
    A|--3-3--3-3-------|
    E|-----------------|



Поделитесь с друзьями:

7

;

Такой email уже используется или указан не настоящий email

,

Восстановление пароля
Правила восстановления пароля будут отправлены на Вашу почту.
Уже не надо, я вспомнил(а) пароль

+

Вход в аккаунт

Восстановить


пароль

Вход через соцсети:

12

.

Регистрация